ISO-10303-21;
HEADER;
FILE_DESCRIPTION((''),'2;1');
FILE_NAME('A500-203','2017-10-25T',('MeFernandez'),('ASCO Numatics'),
'PRO/ENGINEER BY PARAMETRIC TECHNOLOGY CORPORATION, 2015030',
'PRO/ENGINEER BY PARAMETRIC TECHNOLOGY CORPORATION, 2015030','');
FILE_SCHEMA(('CONFIG_CONTROL_DESIGN'));
ENDSEC;
DATA;
#2=CARTESIAN_POINT('',(2.062E0,0.E0,-6.25E-1));
#3=DIRECTION('',(0.E0,0.E0,-1.E0));
#4=DIRECTION('',(1.E0,0.E0,0.E0));
#5=AXIS2_PLACEMENT_3D('',#2,#3,#4);
#7=CARTESIAN_POINT('',(2.062E0,0.E0,-6.25E-1));
#8=DIRECTION('',(0.E0,0.E0,-1.E0));
#9=DIRECTION('',(-1.E0,0.E0,0.E0));
#10=AXIS2_PLACEMENT_3D('',#7,#8,#9);
#12=DIRECTION('',(0.E0,-1.E0,0.E0));
#13=VECTOR('',#12,1.5E0);
#14=CARTESIAN_POINT('',(0.E0,7.5E-1,-6.25E-1));
#15=LINE('',#14,#13);
#16=DIRECTION('',(1.E0,0.E0,0.E0));
#17=VECTOR('',#16,2.512693909433E0);
#18=CARTESIAN_POINT('',(0.E0,-7.5E-1,-6.25E-1));
#19=LINE('',#18,#17);
#20=DIRECTION('',(7.071067811865E-1,7.071067811865E-1,0.E0));
#21=VECTOR('',#20,4.232827325807E-1);
#22=CARTESIAN_POINT('',(2.512693909433E0,-7.5E-1,-6.25E-1));
#23=LINE('',#22,#21);
#24=DIRECTION('',(0.E0,1.E0,0.E0));
#25=VECTOR('',#24,9.013878188660E-1);
#26=CARTESIAN_POINT('',(2.812E0,-4.506939094330E-1,-6.25E-1));
#27=LINE('',#26,#25);
#28=DIRECTION('',(-7.071067811865E-1,7.071067811865E-1,0.E0));
#29=VECTOR('',#28,4.232827325807E-1);
#30=CARTESIAN_POINT('',(2.812E0,4.506939094330E-1,-6.25E-1));
#31=LINE('',#30,#29);
#32=DIRECTION('',(-1.E0,0.E0,0.E0));
#33=VECTOR('',#32,2.512693909433E0);
#34=CARTESIAN_POINT('',(2.512693909433E0,7.5E-1,-6.25E-1));
#35=LINE('',#34,#33);
#36=DIRECTION('',(0.E0,0.E0,1.E0));
#37=VECTOR('',#36,1.25E0);
#38=CARTESIAN_POINT('',(2.437E0,0.E0,-6.25E-1));
#39=LINE('',#38,#37);
#40=DIRECTION('',(0.E0,0.E0,1.E0));
#41=VECTOR('',#40,1.25E0);
#42=CARTESIAN_POINT('',(1.687E0,0.E0,-6.25E-1));
#43=LINE('',#42,#41);
#44=CARTESIAN_POINT('',(2.062E0,0.E0,6.25E-1));
#45=DIRECTION('',(0.E0,0.E0,-1.E0));
#46=DIRECTION('',(1.E0,0.E0,0.E0));
#47=AXIS2_PLACEMENT_3D('',#44,#45,#46);
#49=CARTESIAN_POINT('',(2.062E0,0.E0,6.25E-1));
#50=DIRECTION('',(0.E0,0.E0,-1.E0));
#51=DIRECTION('',(-1.E0,0.E0,0.E0));
#52=AXIS2_PLACEMENT_3D('',#49,#50,#51);
#54=DIRECTION('',(0.E0,-1.E0,0.E0));
#55=VECTOR('',#54,1.5E0);
#56=CARTESIAN_POINT('',(0.E0,7.5E-1,6.25E-1));
#57=LINE('',#56,#55);
#58=DIRECTION('',(-1.E0,0.E0,0.E0));
#59=VECTOR('',#58,2.512693909433E0);
#60=CARTESIAN_POINT('',(2.512693909433E0,7.5E-1,6.25E-1));
#61=LINE('',#60,#59);
#62=DIRECTION('',(-7.071067811865E-1,7.071067811865E-1,0.E0));
#63=VECTOR('',#62,4.232827325807E-1);
#64=CARTESIAN_POINT('',(2.812E0,4.506939094330E-1,6.25E-1));
#65=LINE('',#64,#63);
#66=DIRECTION('',(0.E0,1.E0,0.E0));
#67=VECTOR('',#66,9.013878188660E-1);
#68=CARTESIAN_POINT('',(2.812E0,-4.506939094330E-1,6.25E-1));
#69=LINE('',#68,#67);
#70=DIRECTION('',(7.071067811865E-1,7.071067811865E-1,0.E0));
#71=VECTOR('',#70,4.232827325807E-1);
#72=CARTESIAN_POINT('',(2.512693909433E0,-7.5E-1,6.25E-1));
#73=LINE('',#72,#71);
#74=DIRECTION('',(1.E0,0.E0,0.E0));
#75=VECTOR('',#74,2.512693909433E0);
#76=CARTESIAN_POINT('',(0.E0,-7.5E-1,6.25E-1));
#77=LINE('',#76,#75);
#78=DIRECTION('',(0.E0,0.E0,1.E0));
#79=VECTOR('',#78,1.25E0);
#80=CARTESIAN_POINT('',(0.E0,7.5E-1,-6.25E-1));
#81=LINE('',#80,#79);
#82=CARTESIAN_POINT('',(0.E0,0.E0,0.E0));
#83=DIRECTION('',(-1.E0,0.E0,0.E0));
#84=DIRECTION('',(0.E0,1.E0,0.E0));
#85=AXIS2_PLACEMENT_3D('',#82,#83,#84);
#87=CARTESIAN_POINT('',(0.E0,0.E0,0.E0));
#88=DIRECTION('',(-1.E0,0.E0,0.E0));
#89=DIRECTION('',(0.E0,-1.E0,0.E0));
#90=AXIS2_PLACEMENT_3D('',#87,#88,#89);
#92=DIRECTION('',(0.E0,0.E0,1.E0));
#93=VECTOR('',#92,1.25E0);
#94=CARTESIAN_POINT('',(2.512693909433E0,7.5E-1,-6.25E-1));
#95=LINE('',#94,#93);
#96=DIRECTION('',(0.E0,0.E0,1.E0));
#97=VECTOR('',#96,1.25E0);
#98=CARTESIAN_POINT('',(2.812E0,4.506939094330E-1,-6.25E-1));
#99=LINE('',#98,#97);
#100=DIRECTION('',(0.E0,0.E0,1.E0));
#101=VECTOR('',#100,1.25E0);
#102=CARTESIAN_POINT('',(2.812E0,-4.506939094330E-1,-6.25E-1));
#103=LINE('',#102,#101);
#104=DIRECTION('',(0.E0,0.E0,1.E0));
#105=VECTOR('',#104,1.25E0);
#106=CARTESIAN_POINT('',(2.512693909433E0,-7.5E-1,-6.25E-1));
#107=LINE('',#106,#105);
#108=DIRECTION('',(0.E0,0.E0,1.E0));
#109=VECTOR('',#108,1.25E0);
#110=CARTESIAN_POINT('',(0.E0,-7.5E-1,-6.25E-1));
#111=LINE('',#110,#109);
#112=CARTESIAN_POINT('',(3.125E-2,0.E0,0.E0));
#113=DIRECTION('',(-1.E0,0.E0,0.E0));
#114=DIRECTION('',(0.E0,1.E0,0.E0));
#115=AXIS2_PLACEMENT_3D('',#112,#113,#114);
#117=DIRECTION('',(-7.071067811865E-1,-7.071067811865E-1,0.E0));
#118=VECTOR('',#117,4.419417382416E-2);
#119=CARTESIAN_POINT('',(3.125E-2,-3.4375E-1,0.E0));
#120=LINE('',#119,#118);
#121=CARTESIAN_POINT('',(3.125E-2,0.E0,0.E0));
#122=DIRECTION('',(1.E0,0.E0,0.E0));
#123=DIRECTION('',(0.E0,1.E0,0.E0));
#124=AXIS2_PLACEMENT_3D('',#121,#122,#123);
#126=DIRECTION('',(-7.071067811865E-1,7.071067811865E-1,0.E0));
#127=VECTOR('',#126,4.419417382416E-2);
#128=CARTESIAN_POINT('',(3.125E-2,3.4375E-1,0.E0));
#129=LINE('',#128,#127);
#130=DIRECTION('',(-1.E0,0.E0,0.E0));
#131=VECTOR('',#130,1.09375E0);
#132=CARTESIAN_POINT('',(1.125E0,3.4375E-1,0.E0));
#133=LINE('',#132,#131);
#134=DIRECTION('',(-1.E0,0.E0,0.E0));
#135=VECTOR('',#134,1.09375E0);
#136=CARTESIAN_POINT('',(1.125E0,-3.4375E-1,0.E0));
#137=LINE('',#136,#135);
#138=CARTESIAN_POINT('',(1.125E0,0.E0,0.E0));
#139=DIRECTION('',(1.E0,0.E0,0.E0));
#140=DIRECTION('',(0.E0,1.E0,0.E0));
#141=AXIS2_PLACEMENT_3D('',#138,#139,#140);
#143=CARTESIAN_POINT('',(1.125E0,0.E0,0.E0));
#144=DIRECTION('',(-1.E0,0.E0,0.E0));
#145=DIRECTION('',(0.E0,1.E0,0.E0));
#146=AXIS2_PLACEMENT_3D('',#143,#144,#145);
#148=DIRECTION('',(-5.150380749101E-1,8.571673007021E-1,0.E0));
#149=VECTOR('',#148,4.010302302928E-1);
#150=CARTESIAN_POINT('',(1.331545837791E0,0.E0,0.E0));
#151=LINE('',#150,#149);
#152=DIRECTION('',(-5.150380749101E-1,-8.571673007021E-1,0.E0));
#153=VECTOR('',#152,4.010302302928E-1);
#154=CARTESIAN_POINT('',(1.331545837791E0,0.E0,0.E0));
#155=LINE('',#154,#153);
#156=CARTESIAN_POINT('',(2.437E0,0.E0,-6.25E-1));
#157=CARTESIAN_POINT('',(1.687E0,0.E0,-6.25E-1));
#158=VERTEX_POINT('',#156);
#159=VERTEX_POINT('',#157);
#160=CARTESIAN_POINT('',(0.E0,7.5E-1,-6.25E-1));
#161=CARTESIAN_POINT('',(0.E0,-7.5E-1,-6.25E-1));
#162=VERTEX_POINT('',#160);
#163=VERTEX_POINT('',#161);
#164=CARTESIAN_POINT('',(2.512693909433E0,-7.5E-1,-6.25E-1));
#165=VERTEX_POINT('',#164);
#166=CARTESIAN_POINT('',(2.812E0,-4.506939094330E-1,-6.25E-1));
#167=VERTEX_POINT('',#166);
#168=CARTESIAN_POINT('',(2.812E0,4.506939094330E-1,-6.25E-1));
#169=VERTEX_POINT('',#168);
#170=CARTESIAN_POINT('',(2.512693909433E0,7.5E-1,-6.25E-1));
#171=VERTEX_POINT('',#170);
#172=CARTESIAN_POINT('',(2.437E0,0.E0,6.25E-1));
#173=CARTESIAN_POINT('',(1.687E0,0.E0,6.25E-1));
#174=VERTEX_POINT('',#172);
#175=VERTEX_POINT('',#173);
#176=CARTESIAN_POINT('',(0.E0,7.5E-1,6.25E-1));
#177=CARTESIAN_POINT('',(0.E0,-7.5E-1,6.25E-1));
#178=VERTEX_POINT('',#176);
#179=VERTEX_POINT('',#177);
#180=CARTESIAN_POINT('',(2.512693909433E0,-7.5E-1,6.25E-1));
#181=VERTEX_POINT('',#180);
#182=CARTESIAN_POINT('',(2.812E0,-4.506939094330E-1,6.25E-1));
#183=VERTEX_POINT('',#182);
#184=CARTESIAN_POINT('',(2.812E0,4.506939094330E-1,6.25E-1));
#185=VERTEX_POINT('',#184);
#186=CARTESIAN_POINT('',(2.512693909433E0,7.5E-1,6.25E-1));
#187=VERTEX_POINT('',#186);
#188=CARTESIAN_POINT('',(1.331545837791E0,0.E0,0.E0));
#189=CARTESIAN_POINT('',(1.125E0,3.4375E-1,0.E0));
#190=VERTEX_POINT('',#188);
#191=VERTEX_POINT('',#189);
#192=CARTESIAN_POINT('',(3.125E-2,3.4375E-1,0.E0));
#193=VERTEX_POINT('',#192);
#194=CARTESIAN_POINT('',(1.125E0,-3.4375E-1,0.E0));
#195=VERTEX_POINT('',#194);
#196=CARTESIAN_POINT('',(3.125E-2,-3.4375E-1,0.E0));
#197=VERTEX_POINT('',#196);
#198=CARTESIAN_POINT('',(0.E0,3.75E-1,0.E0));
#199=CARTESIAN_POINT('',(0.E0,-3.75E-1,0.E0));
#200=VERTEX_POINT('',#198);
#201=VERTEX_POINT('',#199);
#202=CARTESIAN_POINT('',(0.E0,0.E0,-6.25E-1));
#203=DIRECTION('',(0.E0,0.E0,1.E0));
#204=DIRECTION('',(1.E0,0.E0,0.E0));
#205=AXIS2_PLACEMENT_3D('',#202,#203,#204);
#206=PLANE('',#205);
#208=ORIENTED_EDGE('',*,*,#207,.T.);
#210=ORIENTED_EDGE('',*,*,#209,.T.);
#212=ORIENTED_EDGE('',*,*,#211,.T.);
#214=ORIENTED_EDGE('',*,*,#213,.T.);
#216=ORIENTED_EDGE('',*,*,#215,.T.);
#218=ORIENTED_EDGE('',*,*,#217,.T.);
#219=EDGE_LOOP('',(#208,#210,#212,#214,#216,#218));
#220=FACE_OUTER_BOUND('',#219,.F.);
#222=ORIENTED_EDGE('',*,*,#221,.T.);
#224=ORIENTED_EDGE('',*,*,#223,.T.);
#225=EDGE_LOOP('',(#222,#224));
#226=FACE_BOUND('',#225,.F.);
#227=ADVANCED_FACE('',(#220,#226),#206,.F.);
#228=CARTESIAN_POINT('',(2.062E0,0.E0,-6.25E-1));
#229=DIRECTION('',(0.E0,0.E0,1.E0));
#230=DIRECTION('',(1.E0,0.E0,0.E0));
#231=AXIS2_PLACEMENT_3D('',#228,#229,#230);
#232=CYLINDRICAL_SURFACE('',#231,3.75E-1);
#233=ORIENTED_EDGE('',*,*,#221,.F.);
#235=ORIENTED_EDGE('',*,*,#234,.T.);
#237=ORIENTED_EDGE('',*,*,#236,.T.);
#239=ORIENTED_EDGE('',*,*,#238,.F.);
#240=EDGE_LOOP('',(#233,#235,#237,#239));
#241=FACE_OUTER_BOUND('',#240,.F.);
#242=ADVANCED_FACE('',(#241),#232,.F.);
#243=CARTESIAN_POINT('',(2.062E0,0.E0,-6.25E-1));
#244=DIRECTION('',(0.E0,0.E0,1.E0));
#245=DIRECTION('',(1.E0,0.E0,0.E0));
#246=AXIS2_PLACEMENT_3D('',#243,#244,#245);
#247=CYLINDRICAL_SURFACE('',#246,3.75E-1);
#248=ORIENTED_EDGE('',*,*,#223,.F.);
#249=ORIENTED_EDGE('',*,*,#238,.T.);
#251=ORIENTED_EDGE('',*,*,#250,.T.);
#252=ORIENTED_EDGE('',*,*,#234,.F.);
#253=EDGE_LOOP('',(#248,#249,#251,#252));
#254=FACE_OUTER_BOUND('',#253,.F.);
#255=ADVANCED_FACE('',(#254),#247,.F.);
#256=CARTESIAN_POINT('',(0.E0,0.E0,6.25E-1));
#257=DIRECTION('',(0.E0,0.E0,1.E0));
#258=DIRECTION('',(1.E0,0.E0,0.E0));
#259=AXIS2_PLACEMENT_3D('',#256,#257,#258);
#260=PLANE('',#259);
#262=ORIENTED_EDGE('',*,*,#261,.F.);
#264=ORIENTED_EDGE('',*,*,#263,.F.);
#266=ORIENTED_EDGE('',*,*,#265,.F.);
#268=ORIENTED_EDGE('',*,*,#267,.F.);
#270=ORIENTED_EDGE('',*,*,#269,.F.);
#272=ORIENTED_EDGE('',*,*,#271,.F.);
#273=EDGE_LOOP('',(#262,#264,#266,#268,#270,#272));
#274=FACE_OUTER_BOUND('',#273,.F.);
#275=ORIENTED_EDGE('',*,*,#236,.F.);
#276=ORIENTED_EDGE('',*,*,#250,.F.);
#277=EDGE_LOOP('',(#275,#276));
#278=FACE_BOUND('',#277,.F.);
#279=ADVANCED_FACE('',(#274,#278),#260,.T.);
#280=CARTESIAN_POINT('',(0.E0,7.5E-1,-6.25E-1));
#281=DIRECTION('',(-1.E0,0.E0,0.E0));
#282=DIRECTION('',(0.E0,-1.E0,0.E0));
#283=AXIS2_PLACEMENT_3D('',#280,#281,#282);
#284=PLANE('',#283);
#285=ORIENTED_EDGE('',*,*,#207,.F.);
#287=ORIENTED_EDGE('',*,*,#286,.T.);
#288=ORIENTED_EDGE('',*,*,#261,.T.);
#290=ORIENTED_EDGE('',*,*,#289,.F.);
#291=EDGE_LOOP('',(#285,#287,#288,#290));
#292=FACE_OUTER_BOUND('',#291,.F.);
#294=ORIENTED_EDGE('',*,*,#293,.T.);
#296=ORIENTED_EDGE('',*,*,#295,.T.);
#297=EDGE_LOOP('',(#294,#296));
#298=FACE_BOUND('',#297,.F.);
#299=ADVANCED_FACE('',(#292,#298),#284,.T.);
#300=CARTESIAN_POINT('',(2.512693909433E0,7.5E-1,-6.25E-1));
#301=DIRECTION('',(0.E0,1.E0,0.E0));
#302=DIRECTION('',(-1.E0,0.E0,0.E0));
#303=AXIS2_PLACEMENT_3D('',#300,#301,#302);
#304=PLANE('',#303);
#305=ORIENTED_EDGE('',*,*,#217,.F.);
#307=ORIENTED_EDGE('',*,*,#306,.T.);
#308=ORIENTED_EDGE('',*,*,#263,.T.);
#309=ORIENTED_EDGE('',*,*,#286,.F.);
#310=EDGE_LOOP('',(#305,#307,#308,#309));
#311=FACE_OUTER_BOUND('',#310,.F.);
#312=ADVANCED_FACE('',(#311),#304,.T.);
#313=CARTESIAN_POINT('',(2.812E0,4.506939094330E-1,-6.25E-1));
#314=DIRECTION('',(7.071067811865E-1,7.071067811865E-1,0.E0));
#315=DIRECTION('',(-7.071067811865E-1,7.071067811865E-1,0.E0));
#316=AXIS2_PLACEMENT_3D('',#313,#314,#315);
#317=PLANE('',#316);
#318=ORIENTED_EDGE('',*,*,#215,.F.);
#320=ORIENTED_EDGE('',*,*,#319,.T.);
#321=ORIENTED_EDGE('',*,*,#265,.T.);
#322=ORIENTED_EDGE('',*,*,#306,.F.);
#323=EDGE_LOOP('',(#318,#320,#321,#322));
#324=FACE_OUTER_BOUND('',#323,.F.);
#325=ADVANCED_FACE('',(#324),#317,.T.);
#326=CARTESIAN_POINT('',(2.812E0,-4.506939094330E-1,-6.25E-1));
#327=DIRECTION('',(1.E0,0.E0,0.E0));
#328=DIRECTION('',(0.E0,1.E0,0.E0));
#329=AXIS2_PLACEMENT_3D('',#326,#327,#328);
#330=PLANE('',#329);
#331=ORIENTED_EDGE('',*,*,#213,.F.);
#333=ORIENTED_EDGE('',*,*,#332,.T.);
#334=ORIENTED_EDGE('',*,*,#267,.T.);
#335=ORIENTED_EDGE('',*,*,#319,.F.);
#336=EDGE_LOOP('',(#331,#333,#334,#335));
#337=FACE_OUTER_BOUND('',#336,.F.);
#338=ADVANCED_FACE('',(#337),#330,.T.);
#339=CARTESIAN_POINT('',(2.512693909433E0,-7.5E-1,-6.25E-1));
#340=DIRECTION('',(7.071067811865E-1,-7.071067811865E-1,0.E0));
#341=DIRECTION('',(7.071067811865E-1,7.071067811865E-1,0.E0));
#342=AXIS2_PLACEMENT_3D('',#339,#340,#341);
#343=PLANE('',#342);
#344=ORIENTED_EDGE('',*,*,#211,.F.);
#346=ORIENTED_EDGE('',*,*,#345,.T.);
#347=ORIENTED_EDGE('',*,*,#269,.T.);
#348=ORIENTED_EDGE('',*,*,#332,.F.);
#349=EDGE_LOOP('',(#344,#346,#347,#348));
#350=FACE_OUTER_BOUND('',#349,.F.);
#351=ADVANCED_FACE('',(#350),#343,.T.);
#352=CARTESIAN_POINT('',(0.E0,-7.5E-1,-6.25E-1));
#353=DIRECTION('',(0.E0,-1.E0,0.E0));
#354=DIRECTION('',(1.E0,0.E0,0.E0));
#355=AXIS2_PLACEMENT_3D('',#352,#353,#354);
#356=PLANE('',#355);
#357=ORIENTED_EDGE('',*,*,#209,.F.);
#358=ORIENTED_EDGE('',*,*,#289,.T.);
#359=ORIENTED_EDGE('',*,*,#271,.T.);
#360=ORIENTED_EDGE('',*,*,#345,.F.);
#361=EDGE_LOOP('',(#357,#358,#359,#360));
#362=FACE_OUTER_BOUND('',#361,.F.);
#363=ADVANCED_FACE('',(#362),#356,.T.);
#364=CARTESIAN_POINT('',(1.5625E-2,0.E0,0.E0));
#365=DIRECTION('',(-1.E0,0.E0,0.E0));
#366=DIRECTION('',(0.E0,1.E0,0.E0));
#367=AXIS2_PLACEMENT_3D('',#364,#365,#366);
#368=CONICAL_SURFACE('',#367,3.59375E-1,4.5E1);
#369=ORIENTED_EDGE('',*,*,#293,.F.);
#371=ORIENTED_EDGE('',*,*,#370,.F.);
#373=ORIENTED_EDGE('',*,*,#372,.T.);
#375=ORIENTED_EDGE('',*,*,#374,.T.);
#376=EDGE_LOOP('',(#369,#371,#373,#375));
#377=FACE_OUTER_BOUND('',#376,.F.);
#378=ADVANCED_FACE('',(#377),#368,.F.);
#379=CARTESIAN_POINT('',(1.5625E-2,0.E0,0.E0));
#380=DIRECTION('',(-1.E0,0.E0,0.E0));
#381=DIRECTION('',(0.E0,1.E0,0.E0));
#382=AXIS2_PLACEMENT_3D('',#379,#380,#381);
#383=CONICAL_SURFACE('',#382,3.59375E-1,4.5E1);
#384=ORIENTED_EDGE('',*,*,#295,.F.);
#385=ORIENTED_EDGE('',*,*,#374,.F.);
#387=ORIENTED_EDGE('',*,*,#386,.F.);
#388=ORIENTED_EDGE('',*,*,#370,.T.);
#389=EDGE_LOOP('',(#384,#385,#387,#388));
#390=FACE_OUTER_BOUND('',#389,.F.);
#391=ADVANCED_FACE('',(#390),#383,.F.);
#392=CARTESIAN_POINT('',(1.398123129680E0,0.E0,0.E0));
#393=DIRECTION('',(-1.E0,0.E0,0.E0));
#394=DIRECTION('',(0.E0,1.E0,0.E0));
#395=AXIS2_PLACEMENT_3D('',#392,#393,#394);
#396=CYLINDRICAL_SURFACE('',#395,3.4375E-1);
#398=ORIENTED_EDGE('',*,*,#397,.T.);
#399=ORIENTED_EDGE('',*,*,#386,.T.);
#401=ORIENTED_EDGE('',*,*,#400,.F.);
#403=ORIENTED_EDGE('',*,*,#402,.F.);
#404=EDGE_LOOP('',(#398,#399,#401,#403));
#405=FACE_OUTER_BOUND('',#404,.F.);
#406=ADVANCED_FACE('',(#405),#396,.F.);
#407=CARTESIAN_POINT('',(1.398123129680E0,0.E0,0.E0));
#408=DIRECTION('',(-1.E0,0.E0,0.E0));
#409=DIRECTION('',(0.E0,1.E0,0.E0));
#410=AXIS2_PLACEMENT_3D('',#407,#408,#409);
#411=CYLINDRICAL_SURFACE('',#410,3.4375E-1);
#412=ORIENTED_EDGE('',*,*,#397,.F.);
#414=ORIENTED_EDGE('',*,*,#413,.T.);
#415=ORIENTED_EDGE('',*,*,#400,.T.);
#416=ORIENTED_EDGE('',*,*,#372,.F.);
#417=EDGE_LOOP('',(#412,#414,#415,#416));
#418=FACE_OUTER_BOUND('',#417,.F.);
#419=ADVANCED_FACE('',(#418),#411,.F.);
#420=CARTESIAN_POINT('',(1.226207460517E0,0.E0,0.E0));
#421=DIRECTION('',(-1.E0,0.E0,0.E0));
#422=DIRECTION('',(0.E0,1.E0,0.E0));
#423=AXIS2_PLACEMENT_3D('',#420,#421,#422);
#424=CONICAL_SURFACE('',#423,1.753125E-1,5.9E1);
#426=ORIENTED_EDGE('',*,*,#425,.F.);
#428=ORIENTED_EDGE('',*,*,#427,.T.);
#429=ORIENTED_EDGE('',*,*,#413,.F.);
#430=EDGE_LOOP('',(#426,#428,#429));
#431=FACE_OUTER_BOUND('',#430,.F.);
#432=ADVANCED_FACE('',(#431),#424,.F.);
#433=CARTESIAN_POINT('',(1.226207460517E0,0.E0,0.E0));
#434=DIRECTION('',(-1.E0,0.E0,0.E0));
#435=DIRECTION('',(0.E0,1.E0,0.E0));
#436=AXIS2_PLACEMENT_3D('',#433,#434,#435);
#437=CONICAL_SURFACE('',#436,1.753125E-1,5.9E1);
#438=ORIENTED_EDGE('',*,*,#425,.T.);
#439=ORIENTED_EDGE('',*,*,#402,.T.);
#440=ORIENTED_EDGE('',*,*,#427,.F.);
#441=EDGE_LOOP('',(#438,#439,#440));
#442=FACE_OUTER_BOUND('',#441,.F.);
#443=ADVANCED_FACE('',(#442),#437,.F.);
#444=CLOSED_SHELL('',(#227,#242,#255,#279,#299,#312,#325,#338,#351,#363,#378,
#391,#406,#419,#432,#443));
#445=MANIFOLD_SOLID_BREP('',#444);
#446=DIMENSIONAL_EXPONENTS(1.E0,0.E0,0.E0,0.E0,0.E0,0.E0,0.E0);
#448=LENGTH_MEASURE_WITH_UNIT(LENGTH_MEASURE(2.54E1),#447);
#449=(CONVERSION_BASED_UNIT('INCH',#448)LENGTH_UNIT()NAMED_UNIT(#446));
#450=DIMENSIONAL_EXPONENTS(0.E0,0.E0,0.E0,0.E0,0.E0,0.E0,0.E0);
#452=PLANE_ANGLE_MEASURE_WITH_UNIT(PLANE_ANGLE_MEASURE(1.745329251994E-2),#451);
#453=(CONVERSION_BASED_UNIT('DEGREE',#452)NAMED_UNIT(*)PLANE_ANGLE_UNIT());
#455=UNCERTAINTY_MEASURE_WITH_UNIT(LENGTH_MEASURE(3.553783312093E-4),#449,
'closure',
'Maximum model space distance between geometric entities at asserted connectivities');
#456=(GEOMETRIC_REPRESENTATION_CONTEXT(3)GLOBAL_UNCERTAINTY_ASSIGNED_CONTEXT((
#455))GLOBAL_UNIT_ASSIGNED_CONTEXT((#449,#453,#454))REPRESENTATION_CONTEXT
('ID1','3'));
#458=APPLICATION_CONTEXT(
'CONFIGURATION CONTROLLED 3D DESIGNS OF MECHANICAL PARTS AND ASSEMBLIES');
#459=APPLICATION_PROTOCOL_DEFINITION('international standard',
'config_control_design',1994,#458);
#460=DESIGN_CONTEXT('',#458,'design');
#461=MECHANICAL_CONTEXT('',#458,'mechanical');
#462=PRODUCT('A500-203','A500-203','NOT SPECIFIED',(#461));
#463=PRODUCT_DEFINITION_FORMATION_WITH_SPECIFIED_SOURCE('2','LAST_VERSION',#462,
.MADE.);
#467=PRODUCT_CATEGORY('part','');
#468=PRODUCT_RELATED_PRODUCT_CATEGORY('detail','',(#462));
#469=PRODUCT_CATEGORY_RELATIONSHIP('','',#467,#468);
#470=SECURITY_CLASSIFICATION_LEVEL('unclassified');
#471=SECURITY_CLASSIFICATION('','',#470);
#472=CC_DESIGN_SECURITY_CLASSIFICATION(#471,(#463));
#473=APPROVAL_STATUS('approved');
#474=APPROVAL(#473,'');
#475=CC_DESIGN_APPROVAL(#474,(#471,#463,#464));
#476=CALENDAR_DATE(117,25,10);
#477=COORDINATED_UNIVERSAL_TIME_OFFSET(8,0,.AHEAD.);
#478=LOCAL_TIME(19,54,9.E0,#477);
#479=DATE_AND_TIME(#476,#478);
#480=APPROVAL_DATE_TIME(#479,#474);
#481=DATE_TIME_ROLE('creation_date');
#482=CC_DESIGN_DATE_AND_TIME_ASSIGNMENT(#479,#481,(#464));
#483=DATE_TIME_ROLE('classification_date');
#484=CC_DESIGN_DATE_AND_TIME_ASSIGNMENT(#479,#483,(#471));
#485=PERSON('UNSPECIFIED','UNSPECIFIED',$,$,$,$);
#486=ORGANIZATION('UNSPECIFIED','UNSPECIFIED','UNSPECIFIED');
#487=PERSON_AND_ORGANIZATION(#485,#486);
#488=APPROVAL_ROLE('approver');
#489=APPROVAL_PERSON_ORGANIZATION(#487,#474,#488);
#490=PERSON_AND_ORGANIZATION_ROLE('creator');
#491=CC_DESIGN_PERSON_AND_ORGANIZATION_ASSIGNMENT(#487,#490,(#463,#464));
#492=PERSON_AND_ORGANIZATION_ROLE('design_supplier');
#493=CC_DESIGN_PERSON_AND_ORGANIZATION_ASSIGNMENT(#487,#492,(#463));
#494=PERSON_AND_ORGANIZATION_ROLE('classification_officer');
#495=CC_DESIGN_PERSON_AND_ORGANIZATION_ASSIGNMENT(#487,#494,(#471));
#496=PERSON_AND_ORGANIZATION_ROLE('design_owner');
#497=CC_DESIGN_PERSON_AND_ORGANIZATION_ASSIGNMENT(#487,#496,(#462));
#6=CIRCLE('',#5,3.75E-1);
#11=CIRCLE('',#10,3.75E-1);
#48=CIRCLE('',#47,3.75E-1);
#53=CIRCLE('',#52,3.75E-1);
#86=CIRCLE('',#85,3.75E-1);
#91=CIRCLE('',#90,3.75E-1);
#116=CIRCLE('',#115,3.4375E-1);
#125=CIRCLE('',#124,3.4375E-1);
#142=CIRCLE('',#141,3.4375E-1);
#147=CIRCLE('',#146,3.4375E-1);
#207=EDGE_CURVE('',#162,#163,#15,.T.);
#209=EDGE_CURVE('',#163,#165,#19,.T.);
#211=EDGE_CURVE('',#165,#167,#23,.T.);
#213=EDGE_CURVE('',#167,#169,#27,.T.);
#215=EDGE_CURVE('',#169,#171,#31,.T.);
#217=EDGE_CURVE('',#171,#162,#35,.T.);
#221=EDGE_CURVE('',#158,#159,#6,.T.);
#223=EDGE_CURVE('',#159,#158,#11,.T.);
#234=EDGE_CURVE('',#158,#174,#39,.T.);
#236=EDGE_CURVE('',#174,#175,#48,.T.);
#238=EDGE_CURVE('',#159,#175,#43,.T.);
#250=EDGE_CURVE('',#175,#174,#53,.T.);
#261=EDGE_CURVE('',#178,#179,#57,.T.);
#263=EDGE_CURVE('',#187,#178,#61,.T.);
#265=EDGE_CURVE('',#185,#187,#65,.T.);
#267=EDGE_CURVE('',#183,#185,#69,.T.);
#269=EDGE_CURVE('',#181,#183,#73,.T.);
#271=EDGE_CURVE('',#179,#181,#77,.T.);
#286=EDGE_CURVE('',#162,#178,#81,.T.);
#289=EDGE_CURVE('',#163,#179,#111,.T.);
#293=EDGE_CURVE('',#200,#201,#86,.T.);
#295=EDGE_CURVE('',#201,#200,#91,.T.);
#306=EDGE_CURVE('',#171,#187,#95,.T.);
#319=EDGE_CURVE('',#169,#185,#99,.T.);
#332=EDGE_CURVE('',#167,#183,#103,.T.);
#345=EDGE_CURVE('',#165,#181,#107,.T.);
#370=EDGE_CURVE('',#193,#200,#129,.T.);
#372=EDGE_CURVE('',#193,#197,#116,.T.);
#374=EDGE_CURVE('',#197,#201,#120,.T.);
#386=EDGE_CURVE('',#193,#197,#125,.T.);
#397=EDGE_CURVE('',#191,#193,#133,.T.);
#400=EDGE_CURVE('',#195,#197,#137,.T.);
#402=EDGE_CURVE('',#191,#195,#142,.T.);
#413=EDGE_CURVE('',#191,#195,#147,.T.);
#425=EDGE_CURVE('',#190,#191,#151,.T.);
#427=EDGE_CURVE('',#190,#195,#155,.T.);
#447=(LENGTH_UNIT()NAMED_UNIT(*)SI_UNIT(.MILLI.,.METRE.));
#451=(NAMED_UNIT(*)PLANE_ANGLE_UNIT()SI_UNIT($,.RADIAN.));
#454=(NAMED_UNIT(*)SI_UNIT($,.STERADIAN.)SOLID_ANGLE_UNIT());
#457=ADVANCED_BREP_SHAPE_REPRESENTATION('',(#445),#456);
#464=PRODUCT_DEFINITION('design','',#463,#460);
#465=PRODUCT_DEFINITION_SHAPE('','SHAPE FOR A500-203.',#464);
#466=SHAPE_DEFINITION_REPRESENTATION(#465,#457);
ENDSEC;
END-ISO-10303-21;
